  0
SECTION
  2
HEADER
  9
$ACADVER
  1
AC1009
  9
$INSBASE
 10
0
 20
0
 30
0
  9
$EXTMIN
 10
0
 20
0
  9
$EXTMAX
 10
840
 20
594
  9
$LIMMIN
 10
0
 20
0
  9
$LIMMAX
 10
840
 20
594
  9
$LTSCALE
 40
2
  0
ENDSEC
  0
SECTION
  2
TABLES
  0
TABLE
  2
LTYPE
 70
     9
  0
LTYPE
  2
CONTINUOUS
 70
    64
  3
実線
 72
    65
 73
     0
 40
0.0
  0
LTYPE
  2
DASHED1
 70
    64
  3
--  --  --  --  --  --  --  --  
 72
    65
 73
     2
 40
2.5
 49
1.25
 49
-1.25
  0
LTYPE
  2
DASHED2
 70
    64
  3
----    ----    ----    ----    
 72
    65
 73
     2
 40
5.0
 49
2.5
 49
-2.5
  0
LTYPE
  2
DASHED3
 70
    64
  3
------  ------  ------  ------  
 72
    65
 73
     2
 40
5.0
 49
3.75
 49
-1.25
  0
LTYPE
  2
CENTER1
 70
    64
  3
----- - ----- - ----- - ----- - 
 72
    65
 73
     4
 40
10.0
 49
6.25
 49
-1.25
 49
1.25
 49
-1.25
  0
LTYPE
  2
CENTER2
 70
    64
  3
----------  --  ----------  --  
 72
    65
 73
     4
 40
20.0
 49
12.5
 49
-2.5
 49
2.5
 49
-2.5
  0
LTYPE
  2
PHANTOM1
 70
    64
  3
--- - - --- - - --- - - --- - - 
 72
    65
 73
     6
 40
10.0
 49
3.25
 49
-1.25
 49
1.25
 49
-1.25
 49
1.25
 49
-1.25
  0
LTYPE
  2
PHANTOM2
 70
    64
  3
--------  -  -  --------  -  -  
 72
    65
 73
     6
 40
20.0
 49
10.0
 49
-2.5
 49
1.25
 49
-2.5
 49
1.25
 49
-2.5
  0
LTYPE
  2
DOT
 70
    64
  3
-   -   -   -   -   -   -   -   
 72
    65
 73
     2
 40
2.5
 49
0.625
 49
-1.875
  0
LTYPE
  2
DUMMY
 70
    64
  3
ダミー
 72
    65
 73
     0
 40
0.0
  0
LTYPE
  2
RAND1
 70
    64
  3
ランダム線1
 72
    65
 73
     4
 40
10.0
 49
1.0
 49
-2.0
 49
3.0
 49
-4.0
  0
LTYPE
  2
RAND2
 70
    64
  3
ランダム線2
 72
    65
 73
     4
 40
14.0
 49
2.0
 49
-3.0
 49
4.0
 49
-5.0
  0
LTYPE
  2
RAND3
 70
    64
  3
ランダム線3
 72
    65
 73
     4
 40
18.0
 49
3.0
 49
-4.0
 49
5.0
 49
-6.0
  0
LTYPE
  2
RAND4
 70
    64
  3
ランダム線4
 72
    65
 73
     4
 40
22.0
 49
4.0
 49
-5.0
 49
6.0
 49
-7.0
  0
LTYPE
  2
RAND5
 70
    64
  3
ランダム線5
 72
    65
 73
     4
 40
26.0
 49
5.0
 49
-6.0
 49
7.0
 49
-8.0
  0
LTYPE
  2
LONG1
 70
    64
  3
----------  --  ----------  --  
 72
    65
 73
     4
 40
40.0
 49
32.5
 49
-2.5
 49
2.5
 49
-2.5
  0
LTYPE
  2
LONG2
 70
    64
  3
--------  -  -  --------  -  -  
 72
    65
 73
     6
 40
40.0
 49
30.0
 49
-2.5
 49
1.25
 49
-2.5
 49
1.25
 49
-2.5
  0
LTYPE
  2
LONG3
 70
    64
  3
+++++++++++++++..+++++++++++++++
 72
    65
 73
     2
 40
40.0
 49
37.5
 49
-2.5
  0
LTYPE
  2
LONG4
 70
    64
  3
+++++++++++++++..+++++++++++++++
 72
    65
 73
     2
 40
80.0
 49
75.0
 49
-5.0
  0
LTYPE
  2
LONG5
 70
    64
  3
----------  --  ----------  --  
 72
    65
 73
     4
 40
60.0
 49
37.5
 49
-7.5
 49
7.5
 49
-7.5
  0
LTYPE
  2
dashed
 70
   64
  3
-------   -------------   ------
 72
   65
 73
    2
 40
7.5
 49
6
 49
-1.5
  0
LTYPE
  2
dashed_spaced
 70
   64
  3
----        --------        ----
 72
   65
 73
    2
 40
12
 49
6
 49
-6
  0
LTYPE
  2
long_dashed_dotted
 70
   64
  3
------------- --- --------------
 72
   65
 73
    4
 40
15.25
 49
12
 49
-1.5
 49
0.25
 49
-1.5
  0
LTYPE
  2
long_dashed_double-dotted
 70
   64
  3
----------- --- --- ------------
 72
   65
 73
    6
 40
17
 49
12
 49
-1.5
 49
0.25
 49
-1.5
 49
0.25
 49
-1.5
  0
LTYPE
  2
long_dashed_triplicate-dotted
 70
   64
  3
--------- --- --- --- ----------
 72
   65
 73
    8
 40
18.75
 49
12
 49
-1.5
 49
0.25
 49
-1.5
 49
0.25
 49
-1.5
 49
0.25
 49
-1.5
  0
LTYPE
  2
dotted
 70
   64
  3
   -       -       -       -    
 72
   65
 73
    2
 40
1.75
 49
0.25
 49
-1.5
  0
LTYPE
  2
chain
 70
   64
  3
-------------- -- --------------
 72
   65
 73
    4
 40
18.5
 49
12
 49
-1.5
 49
3.5
 49
-1.5
  0
LTYPE
  2
chain_double_dash
 70
   64
  3
------------ -- -- -------------
 72
   65
 73
    6
 40
23.5
 49
12
 49
-1.5
 49
3.5
 49
-1.5
 49
3.5
 49
-1.5
  0
LTYPE
  2
dashed_dotted
 70
   64
  3
-----------     -     ----------
 72
   65
 73
    4
 40
9.25
 49
6
 49
-1.5
 49
0.25
 49
-1.5
  0
LTYPE
  2
double-dashed_dotted
 70
   64
  3
------   -----------   -   -----
 72
   65
 73
    6
 40
16.75
 49
6
 49
-1.5
 49
6
 49
-1.5
 49
0.25
 49
-1.5
  0
LTYPE
  2
dashed_double-dotted
 70
   64
  3
---------    -    -    ---------
 72
   65
 73
    6
 40
11
 49
6
 49
-1.5
 49
0.25
 49
-1.5
 49
0.25
 49
-1.5
  0
LTYPE
  2
double-dashed_double-dotted
 70
   64
  3
-----   ---------   -   -   ----
 72
   65
 73
    8
 40
18.5
 49
6
 49
-1.5
 49
6
 49
-1.5
 49
0.25
 49
-1.5
 49
0.25
 49
-1.5
  0
LTYPE
  2
dashed_triplicate-dotted
 70
   64
  3
-------    -    -    -    ------
 72
   65
 73
    8
 40
12.75
 49
6
 49
-1.5
 49
0.25
 49
-1.5
 49
0.25
 49
-1.5
 49
0.25
 49
-1.5
  0
LTYPE
  2
double-dashed_triplicate-dotted
 70
   64
  3
-----  ---------  -  -  -  -----
 72
   65
 73
   10
 40
20.25
 49
6
 49
-1.5
 49
6
 49
-1.5
 49
0.25
 49
-1.5
 49
0.25
 49
-1.5
 49
0.25
 49
-1.5
  0
LTYPE
  2
undefined
 70
   64
  3
--------------------------------
 72
   65
 73
    0
 40
0
  0
ENDTAB
  0
TABLE
  2
STYLE
  5
3
100
AcDbSymbolTable
 70
     1
  0
STYLE
  5
10
100
AcDbSymbolTableRecord
100
AcDbTextStyleTableRecord
  2
STANDARD
 70
     0
 40
0.0
 41
1.0
 50
0.0
 71
     0
 42
0.2
  3
txt
  4
bigfont.shx
  0
STYLE
  5
26
100
AcDbSymbolTableRecord
100
AcDbTextStyleTableRecord
  2
TATEGAKI
 70
    68
 40
0.0
 41
1.0
 50
0.0
 71
     0
 42
1.0
  3
txt
  4
bigfont.shx
  0
ENDTAB
  0
TABLE
  2
LAYER
 70
    6
  0
LAYER
  2
_0-1_一般図
 70
   64
 62
    7
  6
CONTINUOUS
  0
LAYER
  2
_0-9_
 70
   64
 62
    7
  6
CONTINUOUS
  0
LAYER
  2
_0-a_
 70
   64
 62
    7
  6
CONTINUOUS
  0
LAYER
  2
_f-1_一般図
 70
   64
 62
    7
  6
CONTINUOUS
  0
LAYER
  2
_f-a_
 70
   64
 62
    7
  6
CONTINUOUS
  0
LAYER
  2
ADD_LINE
 70
   64
 62
    7
  6
CONTINUOUS
  0
ENDTAB
  0
ENDSEC
  0
SECTION
  2
BLOCKS
  0
BLOCK
  2
-000-AT-114
 70
   64
 10
0
 20
0
 30
0
  0
CIRCLE
  8
_b-0_
  6
CONTINUOUS
 62
    7
 10
0
 20
22.119351351351348
 40
38
  0
ARC
  8
_b-0_
  6
CONTINUOUS
 62
    7
 10
0.345468843305241
 20
-14.679027027027024
 40
0.2
 50
210.26857847717841
 51
270.53788579958132
  0
ARC
  8
_b-0_
  6
CONTINUOUS
 62
    7
 10
0
 20
-14.88064864864865
 40
0.2
 50
30.268578477178441
 51
149.73142152282105
  0
ARC
  8
_b-0_
  6
CONTINUOUS
 62
    7
 10
0
 20
22.119351351351348
 40
37
 50
270.53788579958132
 51
269.46211420041868
  0
ARC
  8
_b-0_
  6
CONTINUOUS
 62
    7
 10
-0.345468843305241
 20
-14.679027027027024
 40
0.2
 50
269.46211420041868
 51
329.73142152282156
  0
ENDBLK
  0
ENDSEC
  0
SECTION
  2
ENTITIES
  0
LINE
  8
ADD_LINE
  6
DOT
 62
    9
 10
538.67385039458418
 20
50
 11
538.67385039458418
 21
25
  0
LINE
  8
ADD_LINE
  6
DOT
 62
    9
 10
578.67385039458418
 20
50
 11
578.67385039458418
 21
25
  0
LINE
  8
ADD_LINE
  6
DOT
 62
    9
 10
820.51077559187615
 20
50
 11
820.51077559187615
 21
25
  0
LINE
  8
ADD_LINE
  6
DOT
 62
    9
 10
60.54106559187619
 20
50
 11
60.54106559187619
 21
25
  0
TEXT
  8
_f-a_
 62
    7
 10
289.60745799323013
 20
50
 40
6
 41
0.8333333333333333
 50
0
  1
名　　称
  0
TEXT
  8
_f-a_
 62
    7
 10
548.67385039458418
 20
50
 40
6
 41
0.8333333333333333
 50
0
  1
縮　　尺
  0
TEXT
  8
_f-a_
 62
    7
 10
689.59231299323017
 20
50
 40
6
 41
0.8333333333333333
 50
0
  1
品　　番
  0
LINE
  8
ADD_LINE
  6
DOT
 62
    9
 10
60.54106559187619
 20
50
 11
820.51077559187615
 21
50
  0
LINE
  8
ADD_LINE
  6
DOT
 62
    9
 10
60.54106559187619
 20
25
 11
820.51077559187615
 21
25
  0
TEXT
  8
_0-a_
 62
    3
 10
552.17385039458418
 20
32.5
 40
10
 41
0.8
 50
0
  1
1/2
  0
TEXT
  8
_0-a_
 62
    3
 10
686.34231299323017
 20
32.5
 40
10
 41
0.8
 50
0
  1
AT-114
  0
LINE
  8
_0-1_一般図
  6
CENTER1
 62
    4
 10
98.266630797189578
 20
320
 11
228.18217788763482
 21
320
  0
POINT
  8
_0-9_
 62
    4
 10
106.91758150960266
 20
239
  0
POINT
  8
_0-9_
 62
    4
 10
220.91758150960263
 20
239
  0
LINE
  8
_0-9_
  6
CONTINUOUS
 62
    4
 10
106.91758150960266
 20
237
 11
106.91758150960266
 21
318
  0
LINE
  8
_0-9_
  6
CONTINUOUS
 62
    4
 10
220.91758150960263
 20
237
 11
220.91758150960263
 21
318
  0
POINT
  8
_0-9_
 62
    4
 10
115.85317159956628
 20
292.25
  0
POINT
  8
_0-9_
 62
    4
 10
211.98199141963897
 20
347.75
  0
POINT
  8
_0-9_
 62
    4
 10
211.98199141963897
 20
347.75
  0
POINT
  8
_0-9_
 62
    4
 10
213.28103198785303
 20
348.50000142174662
  0
LINE
  8
_0-9_
  6
CONTINUOUS
 62
    4
 10
214.28103198785303
 20
346.76795061417772
 11
214.28103060628231
 21
346.76795300712837
  0
LINE
  8
_0-9_
  6
CONTINUOUS
 62
    4
 10
211.98199141963897
 20
347.75
 11
213.28103198785303
 21
348.50000142174662
  0
TEXT
  8
_0-9_
 62
    3
 10
216.1305479452742
 20
351.29987076520314
 40
10
 41
0.8
 50
29.999999999999897
  1
1.5
  0
LINE
  8
_0-9_
  6
CONTINUOUS
 62
    4
 10
115.85317159956628
 20
292.25
 11
211.98199141963897
 21
347.75
  0
TEXT
  8
_0-9_
 62
    3
 10
153.89130206797381
 20
315.36602540378442
 40
10
 41
0.8
 50
29.999999999999979
  1
φ111
  0
LINE
  8
_0-9_
  6
CONTINUOUS
 62
    4
 10
106.91758150960266
 20
239
 11
220.91758150960266
 21
239
  0
TEXT
  8
_0-9_
 62
    3
 10
152.91758150960266
 20
240
 40
10
 41
0.8
 50
0
  1
φ114
  0
INSERT
  2
-000-AT-114
  8
_0-1_一般図
 10
163.91758150960266
 20
286.82097297297298
 41
1.5
 42
1.5
 50
0
  0
LINE
  8
_0-1_一般図
  6
CENTER1
 62
    4
 10
163.91758150960266
 20
255.41280454855939
 11
163.91758150960266
 21
384.92113324661619
  0
LINE
  8
_0-1_一般図
  6
CONTINUOUS
 62
    7
 10
318.08241849039757
 20
263
 11
488.07929897227609
 21
263
  0
LINE
  8
_0-1_一般図
  6
CONTINUOUS
 62
    7
 10
318.08241849039757
 20
377
 11
318.08241849039757
 21
263
  0
POINT
  8
_0-9_
 62
    4
 10
318.08241849039757
 20
400.99999999755187
  0
LINE
  8
_0-9_
  6
CONTINUOUS
 62
    4
 10
318.08241849039757
 20
402.99999999755187
 11
318.08241849039757
 21
379
  0
LINE
  8
_0-1_一般図
  6
CONTINUOUS
 62
    7
 10
318.08241849039757
 20
377
 11
488.07929897227609
 21
377
  0
LINE
  8
_0-9_
  6
CONTINUOUS
 62
    4
 10
318.08241849039757
 20
400.99999999755187
 11
678.08241849039757
 21
400.99999999755187
  0
POINT
  8
_0-9_
 62
    4
 10
318.08241849039757
 20
400.99999999755187
  0
LINE
  8
_0-1_一般図
  6
CENTER1
 62
    4
 10
304.3137213513736
 20
320
 11
741.25175776752269
 21
320
  0
LINE
  8
_0-1_一般図
  6
CONTINUOUS
 62
    7
 10
723.33659043654188
 20
375.29999999999995
 11
678.08241849039757
 21
375.29999999999995
  0
ARC
  8
_0-1_一般図
  6
CONTINUOUS
 62
    7
 10
723.33659043654188
 20
365.29999999999995
 40
10
 50
81.469234390051867
 51
90
  0
LINE
  8
_0-1_一般図
  6
CONTINUOUS
 62
    7
 10
723.33659043654188
 20
264.70000000000005
 11
678.08241849039757
 21
264.70000000000005
  0
ARC
  8
_0-1_一般図
  6
CONTINUOUS
 62
    7
 10
723.336590436542
 20
274.70000000000005
 40
10
 50
270
 51
278.53076560994816
  0
LINE
  8
_0-1_一般図
  6
CONTINUOUS
 62
    7
 10
724.81999496584433
 20
375.18936352868297
 11
729.08241849039769
 21
374.54999999999995
  0
LINE
  8
_0-1_一般図
  6
CONTINUOUS
 62
    7
 10
729.08241849039769
 20
374.54999999999995
 11
729.08241849039769
 21
265.4500000000001
  0
LINE
  8
_0-1_一般図
  6
CONTINUOUS
 62
    7
 10
724.81999496584444
 20
264.81063647131714
 11
729.08241849039769
 21
265.4500000000001
  0
ARC
  8
_0-1_一般図
  6
CONTINUOUS
 62
    7
 10
672.50478458344378
 20
367
 40
10
 50
56.09873800313332
 51
90
  0
LINE
  8
_0-1_一般図
  6
CONTINUOUS
 62
    7
 10
507.82567190860198
 20
377
 11
672.50478458344378
 21
377
  0
ARC
  8
_0-1_一般図
  6
CONTINUOUS
 62
    7
 10
672.50478458344378
 20
273
 40
10
 50
270
 51
303.90126199686665
  0
LINE
  8
_0-1_一般図
  6
CONTINUOUS
 62
    7
 10
507.82567190860198
 20
263
 11
672.50478458344378
 21
263
  0
LINE
  8
_0-1_一般図
  6
CONTINUOUS
 62
    5
 10
678.08241849039757
 20
372.49061752131053
 11
678.08241849039757
 21
267.21618308726761
  0
LINE
  8
_0-1_一般図
  6
CONTINUOUS
 62
    5
 10
724.08241849039746
 20
372.49061752131047
 11
724.08241849039769
 21
267.21618308726761
  0
POINT
  8
_0-9_
 62
    4
 10
678.08241849039757
 20
400.99999999755187
  0
POINT
  8
_0-9_
 62
    4
 10
729.08241849039769
 20
400.99999999755187
  0
LINE
  8
_0-9_
  6
CONTINUOUS
 62
    4
 10
678.08241849039757
 20
402.99999999755187
 11
678.08241849039757
 21
377.29999999999995
  0
LINE
  8
_0-9_
  6
CONTINUOUS
 62
    4
 10
729.08241849039769
 20
402.99999999755187
 11
729.08241849039769
 21
376.54999999999995
  0
LINE
  8
_0-9_
  6
CONTINUOUS
 62
    4
 10
678.08241849039757
 20
400.99999999755187
 11
729.08241849039769
 21
400.99999999755187
  0
TEXT
  8
_0-9_
 62
    3
 10
699.33241849039757
 20
401.99999999755187
 40
10
 41
0.8
 50
0
  1
51
  0
TEXT
  8
_0-9_
 62
    3
 10
464.58241849039757
 20
401.99999999755187
 40
10
 41
0.8
 50
0
  1
900・2900・3900
  0
TEXT
  8
_0-a_
 62
    3
 10
187.35745799323013
 20
32.5
 40
10
 41
0.8
 50
0
  1
アルミたてとい新型　丸バンドタイプ(接続部一体成形)
  0
ENDSEC
  0
EOF
